Post your tabs!

Moderator: Capt. Black

User avatar
BY Single coil
#516985
Morning,

I would really like someone to tab out a song called venus blue by a not-so well known but fucking phenomenal group called Acid bath.

I know the guts of the song already, but a tab of the interlude (3:17 - 3:40) and a tab of the clean harmony part (evident at about 0:07 - 0:13) would be superb.

The song as far as I know is either in drop C or C#, and there is either a phaser, flanger, or chorus in there, if not all 3.

Many thanks to the bloke that manages to do that for me.


http://www.youtube.com/watch?v=_UOabKngWCs
User avatar
BY Single coil
#517187
jeremyb wrote:Any help?

http://tabs.ultimate-guitar.com/a/acid_ ... ue_tab.htm


I had a quick look at that one and it seems wrong about 3 notes in, but I'll try again tonight. It could be the harmony part but it is difficult to tell.
That guy has put that same 25% tab on every bloody tab site there is. Really annoying.
User avatar
BY Single coil
#517254
Ok, I got the harmony I wanted. I play it in standard tuning because I really can't be arsed going from standard to drop c -

e----------------------------------------------------------------------| ||
b----------------------------------------------------------------------|o||
g--2--4--4--4--4--4--2-------2-----------------------------------------| ||
d------------------------4-------4---2-------4--4--------4--4--4-------| ||
a---------------------------------------4-------4--4--4/5--5--5-(5)-----|o||
E-----------------------------------------------------------------------| ||

(Like my double bar?)

Now I need the interludey solo thingy.
User avatar
BY Some Bozo
#517271
Code: Select allTune to Eb

There's two guitars and possibly bass in the intro, I can't tell who's playing what, but I've put the basic part on the top tab, the bottom part just contains everything that's different. You can combine the two quite easily on one guitar. Everything's got a ton of chorus on it, one seems to be slow speed and one a bit more warbly.

E |---------------------------------------------------
B |---------------------------------------------------
G |---------------------------------------------------
D |4h5-5-5-5p4-0-------4-----------2-----------1-2-1--
A |----------------------5-2--0------4-0-0-2----------
E ----------------------------------------------------
  |
  |
E |---------------------------------------------------
B |---------------------------------------------------
G |---------------------------------------------------
D |------------4--------------2-----------------------
A |2-------------------------------------0h2-2-2-2-2--
E |---------------------------------------------------


Interlude
Same riff, lead guitar ( go full Cobain on the chorus pedal)

                     *slight bend      full bend        semitone bend
E ------------------------------------------------------------------
B ------------------------------------------------------------------
G 7/9---9-7-/9---7/9-7*----------7/9---9^r9p7--9^r9p7-----7-9-9^-9^-
D ---------------------9-7-9--------------------------9-7-----------
A ------------------------------------------------------------------
E ------------------------------------------------------------------

can't figure out the drone bit at the end of the solo, might get it later if I come back to it

with fresh ears.
User avatar
BY Single coil
#517298
Pain in the Awesome Random Samick Experience I sold my CH1... Slow and deep CE2 + fast and light CH1 = sweet chorus that'd make Robert Smith jealous. Anywhore, that looks pretty much like exactly what I want. Being near 11pm I can't find out just yet but when I do I'll. Thingy.

What do I owe you?
User avatar
BY Some Bozo
#517308
Single coil wrote:What do I owe you?


All good. I do it for the metal \m/ :lol: \m/

Here it is with the end of the solo

Code: Select allTune to Eb


E |---------------------------------------------------
B |---------------------------------------------------
G |---------------------------------------------------
D |4h5-5-5-5p4-0-------4-----------2-----------1-2-1--
A |----------------------5-2--0------4-0-0-2----------
E ----------------------------------------------------
  |
  |
E |---------------------------------------------------
B |---------------------------------------------------
G |---------------------------------------------------
D |------------4--------------2-----------------------
A |2-------------------------------------0h2-2-2-2-2--
E |---------------------------------------------------


Interlude
Same riff, lead guitar ( go full Cobain on the chorus pedal)

                     *slight bend      full bend        semitone bend
E ------------------------------------------------------------------
B ------------------------------------------------------------------
G 7/9---9-7-/9---7/9-7*----------7/9---9^r9p7--9^r9p7-----7-9-9^-9^-
D ---------------------9-7-9--------------------------9-7-----------
A ------------------------------------------------------------------
E ------------------------------------------------------------------


E |--------------------------------------------------------------
B |--------------------------------------------------------------
G |--------------------------------------------------------------
D |9---7---9-7---------7-------7-------9----7----9--7------------
A |------------9p7-7-----9-7 9---9---------------------9--7s9----
E |--------------------------------------------------------------