Post your tabs!

Moderator: Capt. Black

User avatar
BY sonicfantom
#384793
Does anybody have the tab for the guitar solo in Why Does Love Do This To Me?

Got a request to gig this, but i'm useless at tabbing electric solos :oops:
User avatar
BY crushing day
#384822
sonicfantom wrote:Does anybody have the tab for the guitar solo in Why Does Love Do This To Me?

Got a request to gig this, but i'm useless at tabbing electric solos :oops:


refuse to play it.. its the only way forward.
User avatar
BY dayl
#384823
crushing day wrote:
sonicfantom wrote:Does anybody have the tab for the guitar solo in Why Does Love Do This To Me?

Got a request to gig this, but i'm useless at tabbing electric solos :oops:


refuse to play it.. its the only way forward.


+1

Its either Who loves who the most or Victoria :wink: 8)
User avatar
BY rocklander
#384824
airways pies ftw
User avatar
BY Jenesis
#384828
Code: Select all SOLO                                 N.H.

E|--21~---|--------------------------|----------------------------------|
B|--------|--12b14~-----12b13--r-p9--|----------------------------------|
G|--------|--------------------------|-11b13--r-b2---11--r--9-11-9~-----|
D|--------|--------------------------|-------------------------------11-|
A|--------|--------------------------|----------------------------------|
E|--------|--------------------------|----------------------------------|


                     W/bar \

E|---|----------------------------------|-------------------------------|
B|---|----------------------------------|-14b16--r-p12------------------|
G|---|----------------------------------|--------------13p11\9-11h9h11p-|
D|-9-|----------------------------------|-------------------------------|
A|---|11\9-7-9-{7}b9--r-b2--------------|-------------------------------|
E|---|------------------------7-x-7-7/9~|-------------------------------|


          Delay - - - - - - - - - - - - - - - - - - - - - - - - - - - -
-

E|------|-------9h12--------11h14-----14h17-----16h19\-|------16--17--19-|
B|------|----10----------12--------14--------16--------|--17-------------|
G|-9/11~|-11----------13-------------------------------|-----------------|
D|------|----------------------------------------------|-----------------|
A|------|----------------------------------------------|-----------------|
E|------|----------------------------------------------|-----------------|


  - - - - - - - Delay + Harmoniser -  - - - -

E|-17-16-------|--------------9/-14\-9/-21---|
B|-------17----|-----------14----------------|
G|----------16-|-11\-4/-11-------------------|
D|-------------|-----------------------------|
A|-------------|-----------------------------|
E|-------------|-----------------------------|
User avatar
BY sonicfantom
#384839
Awesome. Thanks, Jenesis.

Those effects confuzzle me :oops: ... Hey, I'm a bassist.
BY twistedthoughts
#384853
dayl wrote:+1

Its either Who loves who the most or Victoria :wink: 8)


Not in my experience. Who Loves Who The Most gets an OK-ish response - nothing to really rave about, but Victoria has never failed...

...to clear the dance floor. We had it requested for a private function where we were being paid REAL well. Learned it, tried it out at a few bar gigs, watched the crowd run away screaming. Played it at the private function, same thing happened there.

And we still got paid REAL well. :lol:

Why Does Love Do This To Me always goes off. It's not the best song and it's not exactly the most fun song to play, but as soon as that bass intro is played, everybody knows what time it is: time to sing along to that song you don't really like but you're familiar enough with to sing it at the top of your lungs now that you're drunk and your inhibitions are long gone.

The solo is ridiculously easy. Surely you don't need a tab. Particularly not the tab for Just Like Paradise by David Lee Roth :mrgreen:
BY slash-ed
#384858
twistedthoughts wrote:
Why Does Love Do This To Me always goes off.


This.

And what the hey, I kinda like the song anyway.
User avatar
BY rocklander
#384860
twistedthoughts wrote:
dayl wrote:+1

Its either Who loves who the most or Victoria :wink: 8)


Not in my experience. Who Loves Who The Most gets an OK-ish response - nothing to really rave about, but Victoria has never failed...

...to clear the dance floor. We had it requested for a private function where we were being paid REAL well. Learned it, tried it out at a few bar gigs, watched the crowd run away screaming. Played it at the private function, same thing happened there.

And we still got paid REAL well. :lol:

Why Does Love Do This To Me always goes off. It's not the best song and it's not exactly the most fun song to play, but as soon as that bass intro is played, everybody knows what time it is: time to sing along to that song you don't really like but you're familiar enough with to sing it at the top of your lungs now that you're drunk and your inhibitions are long gone.

The solo is ridiculously easy. Surely you don't need a tab. Particularly not the tab for Just Like Paradise by David Lee Roth :mrgreen:




I agree about Why Does Love.. but not about Victoria.. well at not least as a blanket fail... I'm not saying it is a cert. more that some songs with some bands work and those same songs with another band may fail. classic example, Take Me Out... it's never worked for us, but most other bands have the floor packed with it... Love you Like I should 'should' clear the floor IMO, but when we played it with our original guitarist (who had a real penchant for it, and nailed it perfectly) it went nuts... nigh on every time....if there's sufficient passion in the performance or some X factor, songs that shouldn't work can and do.. if it's missing, songs that should work wont.
User avatar
BY RUDENBARK
#384949
twistedthoughts wrote:The solo is ridiculously easy. Surely you don't need a tab.

+1
:?

Pakehendrix wrote:It's pretty much the easiest guitar solo known to man...

+1
:?

twistedthoughts wrote:Why Does Love Do This To Me always goes off. It's not the best song and it's not exactly the most fun song to play, but as soon as that bass intro is played, everybody knows what time it is: time to sing along to that song you don't really like but you're familiar enough with to sing it at the top of your lungs now that you're drunk and your inhibitions are long gone.

+1 (esp bold)


crushing day wrote:refuse to play it.. its the only way forward.

+11!
My preferred answer!
:D
BY slash-ed
#384951
Everybody needs some tab at some point. What may be the "easiest solo in the world" may not be that easy if you're not at the right level... Just saying.